ISO-10303-21;
HEADER;
FILE_DESCRIPTION (( 'STEP AP203' ),
    '1' );
FILE_NAME ('BK7-BSC-12.7-650-900.STEP',
    '2020-12-22T03:17:11',
    ( '' ),
    ( '' ),
    'SwSTEP 2.0',
    'SolidWorks 2020',
    '' );
FILE_SCHEMA (( 'CONFIG_CONTROL_DESIGN' ));
ENDSEC;

DATA;
#1 = MECHANICAL_CONTEXT ( 'NONE', #22, 'mechanical' ) ;
#2 = DATE_AND_TIME ( #9, #97 ) ;
#3 = CC_DESIGN_SECURITY_CLASSIFICATION ( #288, ( #120 ) ) ;
#4 = ORIENTED_EDGE ( 'NONE', *, *, #166, .T. ) ;
#5 = ORIENTED_EDGE ( 'NONE', *, *, #292, .F. ) ;
#6 = DIRECTION ( 'NONE',  ( -0.000000000000000000, 0.000000000000000000, 1.000000000000000000 ) ) ;
#7 = EDGE_LOOP ( 'NONE', ( #13, #5, #104, #12 ) ) ;
#8 = ADVANCED_BREP_SHAPE_REPRESENTATION ( 'BK7-BSC-12.7-650-900', ( #239, #121, #51 ), #195 ) ;
#9 = CALENDAR_DATE ( 2020, 22, 12 ) ;
#10 = CLOSED_SHELL ( 'NONE', ( #234, #283, #45, #282, #93 ) ) ;
#11 = DIRECTION ( 'NONE',  ( -0.7071067811865474617, -0.7071067811865474617, 0.000000000000000000 ) ) ;
#12 = ORIENTED_EDGE ( 'NONE', *, *, #295, .T. ) ;
#13 = ORIENTED_EDGE ( 'NONE', *, *, #123, .F. ) ;
#14 = CARTESIAN_POINT ( 'NONE',  ( 6.349999999999996980, 6.349999999999996980, 6.349999999999999645 ) ) ;
#15 = VERTEX_POINT ( 'NONE', #84 ) ;
#16 = EDGE_CURVE ( 'NONE', #151, #225, #105, .T. ) ;
#17 = CC_DESIGN_PERSON_AND_ORGANIZATION_ASSIGNMENT ( #301, #229, ( #120 ) ) ;
#18 = CARTESIAN_POINT ( 'NONE',  ( 6.349999999999996980, 6.349999999999996980, 6.349999999999999645 ) ) ;
#19 = CARTESIAN_POINT ( 'NONE',  ( -6.349999999999999645, -6.350000000000000533, -6.349999999999999645 ) ) ;
#20 = EDGE_CURVE ( 'NONE', #151, #112, #276, .T. ) ;
#21 = CARTESIAN_POINT ( 'NONE',  ( 6.349999999999996980, 6.349999999999996980, -6.349999999999999645 ) ) ;
#22 = APPLICATION_CONTEXT ( 'configuration controlled 3d designs of mechanical parts and assemblies' ) ;
#23 = APPROVAL_STATUS ( 'not_yet_approved' ) ;
#24 = ADVANCED_FACE ( 'NONE', ( #159 ), #133, .F. ) ;
#25 = EDGE_CURVE ( 'NONE', #112, #284, #153, .T. ) ;
#26 = CARTESIAN_POINT ( 'NONE',  ( 0.000000000000000000, 0.000000000000000000, 0.000000000000000000 ) ) ;
#27 = EDGE_CURVE ( 'NONE', #225, #303, #30, .T. ) ;
#28 = CALENDAR_DATE ( 2020, 22, 12 ) ;
#29 = AXIS2_PLACEMENT_3D ( 'NONE', #47, #220, #173 ) ;
#30 = LINE ( 'NONE', #83, #75 ) ;
#31 = PERSON_AND_ORGANIZATION_ROLE ( 'creator' ) ;
#32 = CARTESIAN_POINT ( 'NONE',  ( 6.349999999999998757, 6.349999999999998757, -6.349999999999999645 ) ) ;
#33 = ORIENTED_EDGE ( 'NONE', *, *, #54, .T. ) ;
#34 = CARTESIAN_POINT ( 'NONE',  ( 6.349999999999998757, 6.349999999999998757, 6.349999999999999645 ) ) ;
#35 = ORIENTED_EDGE ( 'NONE', *, *, #49, .T. ) ;
#36 = ORIENTED_EDGE ( 'NONE', *, *, #49, .F. ) ;
#37 = CALENDAR_DATE ( 2020, 22, 12 ) ;
#38 = DIRECTION ( 'NONE',  ( -6.829619984160658046E-17, 1.000000000000000000, -0.000000000000000000 ) ) ;
#39 = EDGE_LOOP ( 'NONE', ( #129, #132, #305 ) ) ;
#40 = PRODUCT_RELATED_PRODUCT_CATEGORY ( 'detail', '', ( #64 ) ) ;
#41 = VECTOR ( 'NONE', #95, 1000.000000000000000 ) ;
#42 = CARTESIAN_POINT ( 'NONE',  ( 6.349999999999999645, -6.350000000000000533, -6.349999999999999645 ) ) ;
#43 = UNCERTAINTY_MEASURE_WITH_UNIT (LENGTH_MEASURE( 1.000000000000000082E-05 ), #272, 'distance_accuracy_value', 'NONE');
#44 = DIRECTION ( 'NONE',  ( 0.7071067811865475727, 0.7071067811865475727, 0.000000000000000000 ) ) ;
#45 = ADVANCED_FACE ( 'NONE', ( #150 ), #204, .F. ) ;
#46 = LINE ( 'NONE', #19, #63 ) ;
#47 = CARTESIAN_POINT ( 'NONE',  ( -6.349999999999998757, -6.349999999999997868, 6.349999999999999645 ) ) ;
#48 = APPLICATION_PROTOCOL_DEFINITION ( 'international standard', 'config_control_design', 1994, #259 ) ;
#49 = EDGE_CURVE ( 'NONE', #284, #82, #207, .T. ) ;
#50 = VECTOR ( 'NONE', #116, 999.9999999999998863 ) ;
#51 = AXIS2_PLACEMENT_3D ( 'NONE', #26, #124, #53 ) ;
#52 = FACE_OUTER_BOUND ( 'NONE', #157, .T. ) ;
#53 = DIRECTION ( 'NONE',  ( 1.000000000000000000, 0.000000000000000000, 0.000000000000000000 ) ) ;
#54 = EDGE_CURVE ( 'NONE', #284, #151, #255, .T. ) ;
#55 = ORIENTED_EDGE ( 'NONE', *, *, #166, .F. ) ;
#56 = CC_DESIGN_PERSON_AND_ORGANIZATION_ASSIGNMENT ( #254, #200, ( #274 ) ) ;
#57 = DATE_TIME_ROLE ( 'creation_date' ) ;
#58 = APPROVAL_DATE_TIME ( #2, #76 ) ;
#59 = CARTESIAN_POINT ( 'NONE',  ( 6.349999999999998757, 6.349999999999998757, 6.349999999999999645 ) ) ;
#60 = ORGANIZATION ( 'UNSPECIFIED', 'UNSPECIFIED', '' ) ;
#61 = ORIENTED_EDGE ( 'NONE', *, *, #16, .F. ) ;
#62 = CARTESIAN_POINT ( 'NONE',  ( -6.349999999999999645, -6.350000000000000533, 6.349999999999999645 ) ) ;
#63 = VECTOR ( 'NONE', #287, 1000.000000000000000 ) ;
#64 = PRODUCT ( 'BK7-BSC-12.7-650-900', 'BK7-BSC-12.7-650-900', '', ( #1 ) ) ;
#65 = EDGE_LOOP ( 'NONE', ( #309, #87, #258 ) ) ;
#66 = DATE_AND_TIME ( #37, #222 ) ;
#67 = PLANE ( 'NONE',  #91 ) ;
#68 = ORIENTED_EDGE ( 'NONE', *, *, #158, .T. ) ;
#69 = CC_DESIGN_DATE_AND_TIME_ASSIGNMENT ( #66, #85, ( #288 ) ) ;
#70 = FACE_OUTER_BOUND ( 'NONE', #253, .T. ) ;
#71 = LINE ( 'NONE', #286, #41 ) ;
#72 = VECTOR ( 'NONE', #273, 1000.000000000000000 ) ;
#73 = CARTESIAN_POINT ( 'NONE',  ( 6.349999999999996980, 6.349999999999996980, 6.349999999999999645 ) ) ;
#74 = PERSON ( 'UNSPECIFIED', 'UNSPECIFIED', 'UNSPECIFIED', ('UNSPECIFIED'), ('UNSPECIFIED'), ('UNSPECIFIED') ) ;
#75 = VECTOR ( 'NONE', #233, 1000.000000000000000 ) ;
#76 = APPROVAL ( #23, 'UNSPECIFIED' ) ;
#77 = CARTESIAN_POINT ( 'NONE',  ( -6.349999999999999645, -6.350000000000000533, 6.349999999999999645 ) ) ;
#78 = DATE_AND_TIME ( #28, #164 ) ;
#79 = DIRECTION ( 'NONE',  ( 0.000000000000000000, 0.000000000000000000, 1.000000000000000000 ) ) ;
#80 = ADVANCED_FACE ( 'NONE', ( #211 ), #67, .F. ) ;
#81 = CARTESIAN_POINT ( 'NONE',  ( 6.349999999999996980, 6.349999999999996980, -6.349999999999999645 ) ) ;
#82 = VERTEX_POINT ( 'NONE', #185 ) ;
#83 = CARTESIAN_POINT ( 'NONE',  ( 6.349999999999998757, 6.349999999999998757, -6.349999999999999645 ) ) ;
#84 = CARTESIAN_POINT ( 'NONE',  ( -6.350000000000002309, 6.350000000000001421, -6.349999999999999645 ) ) ;
#85 = DATE_TIME_ROLE ( 'classification_date' ) ;
#86 = DIRECTION ( 'NONE',  ( -1.000000000000000000, 2.903408047666378392E-16, 0.000000000000000000 ) ) ;
#87 = ORIENTED_EDGE ( 'NONE', *, *, #268, .F. ) ;
#88 = APPROVAL_DATE_TIME ( #181, #218 ) ;
#89 = DIRECTION ( 'NONE',  ( 0.7071067811865474617, 0.7071067811865474617, 0.000000000000000000 ) ) ;
#90 = LINE ( 'NONE', #188, #175 ) ;
#91 = AXIS2_PLACEMENT_3D ( 'NONE', #308, #6, #235 ) ;
#92 = FACE_OUTER_BOUND ( 'NONE', #65, .T. ) ;
#93 = ADVANCED_FACE ( 'NONE', ( #262 ), #251, .F. ) ;
#94 = CC_DESIGN_PERSON_AND_ORGANIZATION_ASSIGNMENT ( #226, #31, ( #120 ) ) ;
#95 = DIRECTION ( 'NONE',  ( -0.000000000000000000, -0.000000000000000000, -1.000000000000000000 ) ) ;
#96 = VECTOR ( 'NONE', #167, 1000.000000000000000 ) ;
#97 = LOCAL_TIME ( 11, 17, 11.00000000000000000, #203 ) ;
#98 = DIRECTION ( 'NONE',  ( -0.000000000000000000, 0.000000000000000000, 1.000000000000000000 ) ) ;
#99 = VECTOR ( 'NONE', #302, 1000.000000000000000 ) ;
#100 = APPLICATION_PROTOCOL_DEFINITION ( 'international standard', 'config_control_design', 1994, #22 ) ;
#101 = CARTESIAN_POINT ( 'NONE',  ( 6.349999999999998757, 6.349999999999998757, -6.349999999999999645 ) ) ;
#102 = EDGE_CURVE ( 'NONE', #303, #82, #177, .T. ) ;
#103 = DIRECTION ( 'NONE',  ( 0.000000000000000000, 1.000000000000000000, 0.000000000000000000 ) ) ;
#104 = ORIENTED_EDGE ( 'NONE', *, *, #268, .T. ) ;
#105 = LINE ( 'NONE', #202, #183 ) ;
#106 = APPROVAL_STATUS ( 'not_yet_approved' ) ;
#107 = DIRECTION ( 'NONE',  ( 6.829619984160658046E-17, -1.000000000000000000, 0.000000000000000000 ) ) ;
#108 = ORIENTED_EDGE ( 'NONE', *, *, #304, .T. ) ;
#109 = ORIENTED_EDGE ( 'NONE', *, *, #20, .T. ) ;
#110 = ORIENTED_EDGE ( 'NONE', *, *, #292, .T. ) ;
#111 = CC_DESIGN_APPROVAL ( #218, ( #288 ) ) ;
#112 = VERTEX_POINT ( 'NONE', #136 ) ;
#113 = DIRECTION ( 'NONE',  ( -0.000000000000000000, -0.000000000000000000, -1.000000000000000000 ) ) ;
#114 = ORIENTED_EDGE ( 'NONE', *, *, #158, .F. ) ;
#115 = DIRECTION ( 'NONE',  ( -0.7071067811865475727, 0.7071067811865475727, 0.000000000000000000 ) ) ;
#116 = DIRECTION ( 'NONE',  ( -0.7071067811865475727, -0.7071067811865475727, 0.000000000000000000 ) ) ;
#117 = VECTOR ( 'NONE', #171, 999.9999999999998863 ) ;
#118 = APPROVAL_ROLE ( '' ) ;
#119 = AXIS2_PLACEMENT_3D ( 'NONE', #73, #115, #44 ) ;
#120 = PRODUCT_DEFINITION_FORMATION_WITH_SPECIFIED_SOURCE ( 'ANY', '', #64, .NOT_KNOWN. ) ;
#121 = MANIFOLD_SOLID_BREP ( '¾µÏ', #10 ) ;
#122 = LINE ( 'NONE', #223, #72 ) ;
#123 = EDGE_CURVE ( 'NONE', #15, #278, #230, .T. ) ;
#124 = DIRECTION ( 'NONE',  ( 0.000000000000000000, 0.000000000000000000, 1.000000000000000000 ) ) ;
#125 = CALENDAR_DATE ( 2020, 22, 12 ) ;
#126 = CC_DESIGN_PERSON_AND_ORGANIZATION_ASSIGNMENT ( #269, #196, ( #64 ) ) ;
#127 = APPROVAL_DATE_TIME ( #152, #238 ) ;
#128 = CARTESIAN_POINT ( 'NONE',  ( 6.349999999999998757, 6.349999999999998757, 6.349999999999999645 ) ) ;
#129 = ORIENTED_EDGE ( 'NONE', *, *, #102, .F. ) ;
#130 = ORIENTED_EDGE ( 'NONE', *, *, #16, .T. ) ;
#131 = CARTESIAN_POINT ( 'NONE',  ( -6.349999999999998757, -6.349999999999997868, -6.349999999999999645 ) ) ;
#132 = ORIENTED_EDGE ( 'NONE', *, *, #27, .F. ) ;
#133 = PLANE ( 'NONE',  #275 ) ;
#134 = EDGE_CURVE ( 'NONE', #228, #15, #280, .T. ) ;
#135 = ORIENTED_EDGE ( 'NONE', *, *, #214, .T. ) ;
#136 = CARTESIAN_POINT ( 'NONE',  ( 6.349999999999998757, 6.349999999999998757, 6.349999999999999645 ) ) ;
#137 = ORIENTED_EDGE ( 'NONE', *, *, #25, .F. ) ;
#138 = VECTOR ( 'NONE', #155, 1000.000000000000000 ) ;
#139 = PLANE ( 'NONE',  #119 ) ;
#140 = CALENDAR_DATE ( 2020, 22, 12 ) ;
#141 = ADVANCED_FACE ( 'NONE', ( #231 ), #165, .T. ) ;
#142 = DIRECTION ( 'NONE',  ( 0.000000000000000000, 0.000000000000000000, -1.000000000000000000 ) ) ;
#143 = LOCAL_TIME ( 11, 17, 11.00000000000000000, #168 ) ;
#144 = CC_DESIGN_PERSON_AND_ORGANIZATION_ASSIGNMENT ( #311, #261, ( #288 ) ) ;
#145 = LINE ( 'NONE', #148, #215 ) ;
#146 = CARTESIAN_POINT ( 'NONE',  ( -6.349999999999999645, -6.350000000000000533, 6.349999999999999645 ) ) ;
#147 = LOCAL_TIME ( 11, 17, 11.00000000000000000, #298 ) ;
#148 = CARTESIAN_POINT ( 'NONE',  ( -6.350000000000002309, 6.350000000000001421, 6.349999999999999645 ) ) ;
#149 = PERSON_AND_ORGANIZATION ( #74, #60 ) ;
#150 = FACE_OUTER_BOUND ( 'NONE', #7, .T. ) ;
#151 = VERTEX_POINT ( 'NONE', #216 ) ;
#152 = DATE_AND_TIME ( #125, #147 ) ;
#153 = LINE ( 'NONE', #128, #236 ) ;
#154 = EDGE_LOOP ( 'NONE', ( #297, #161, #263 ) ) ;
#155 = DIRECTION ( 'NONE',  ( -2.220446049250312588E-16, 1.000000000000000000, 0.000000000000000000 ) ) ;
#156 = AXIS2_PLACEMENT_3D ( 'NONE', #243, #98, #289 ) ;
#157 = EDGE_LOOP ( 'NONE', ( #135, #61, #281, #35 ) ) ;
#158 = EDGE_CURVE ( 'NONE', #184, #228, #90, .T. ) ;
#159 = FACE_OUTER_BOUND ( 'NONE', #252, .T. ) ;
#160 = DIRECTION ( 'NONE',  ( -0.000000000000000000, -0.000000000000000000, -1.000000000000000000 ) ) ;
#161 = ORIENTED_EDGE ( 'NONE', *, *, #134, .T. ) ;
#162 = SHAPE_DEFINITION_REPRESENTATION ( #320, #8 ) ;
#163 = CC_DESIGN_DATE_AND_TIME_ASSIGNMENT ( #78, #57, ( #274 ) ) ;
#164 = LOCAL_TIME ( 11, 17, 11.00000000000000000, #174 ) ;
#165 = PLANE ( 'NONE',  #156 ) ;
#166 = EDGE_CURVE ( 'NONE', #112, #303, #71, .T. ) ;
#167 = DIRECTION ( 'NONE',  ( 1.000000000000000000, -2.903408047666378392E-16, 0.000000000000000000 ) ) ;
#168 = COORDINATED_UNIVERSAL_TIME_OFFSET ( 8, 0, .AHEAD. ) ;
#169 = DIRECTION ( 'NONE',  ( 0.000000000000000000, 0.000000000000000000, -1.000000000000000000 ) ) ;
#170 = VECTOR ( 'NONE', #248, 1000.000000000000000 ) ;
#171 = DIRECTION ( 'NONE',  ( -0.7071067811865475727, -0.7071067811865475727, 0.000000000000000000 ) ) ;
#172 = VECTOR ( 'NONE', #38, 1000.000000000000000 ) ;
#173 = DIRECTION ( 'NONE',  ( 0.000000000000000000, 0.000000000000000000, 1.000000000000000000 ) ) ;
#174 = COORDINATED_UNIVERSAL_TIME_OFFSET ( 8, 0, .AHEAD. ) ;
#175 = VECTOR ( 'NONE', #142, 1000.000000000000000 ) ;
#176 = ORIENTED_EDGE ( 'NONE', *, *, #312, .T. ) ;
#177 = LINE ( 'NONE', #32, #271 ) ;
#178 = ORIENTED_EDGE ( 'NONE', *, *, #20, .F. ) ;
#179 = DIRECTION ( 'NONE',  ( 1.000000000000000000, -2.903408047666378392E-16, 0.000000000000000000 ) ) ;
#180 = EDGE_LOOP ( 'NONE', ( #232, #33, #109 ) ) ;
#181 = DATE_AND_TIME ( #140, #143 ) ;
#182 = DIRECTION ( 'NONE',  ( -2.903408047666378392E-16, -1.000000000000000000, 0.000000000000000000 ) ) ;
#183 = VECTOR ( 'NONE', #160, 1000.000000000000000 ) ;
#184 = VERTEX_POINT ( 'NONE', #187 ) ;
#185 = CARTESIAN_POINT ( 'NONE',  ( -6.349999999999999645, -6.350000000000000533, -6.349999999999999645 ) ) ;
#186 = CC_DESIGN_APPROVAL ( #76, ( #274 ) ) ;
#187 = CARTESIAN_POINT ( 'NONE',  ( -6.349999999999998757, -6.349999999999997868, 6.349999999999999645 ) ) ;
#188 = CARTESIAN_POINT ( 'NONE',  ( -6.349999999999998757, -6.349999999999997868, 6.349999999999999645 ) ) ;
#189 = FACE_OUTER_BOUND ( 'NONE', #300, .T. ) ;
#190 = CARTESIAN_POINT ( 'NONE',  ( 6.349999999999996980, 6.349999999999996980, -6.349999999999999645 ) ) ;
#191 = APPROVAL_STATUS ( 'not_yet_approved' ) ;
#192 = DESIGN_CONTEXT ( 'detailed design', #259, 'design' ) ;
#193 = DIRECTION ( 'NONE',  ( 0.000000000000000000, 0.000000000000000000, 1.000000000000000000 ) ) ;
#194 = LINE ( 'NONE', #321, #170 ) ;
#195 =( GEOMETRIC_REPRESENTATION_CONTEXT ( 3 ) GLOBAL_UNCERTAINTY_ASSIGNED_CONTEXT ( ( #43 ) ) GLOBAL_UNIT_ASSIGNED_CONTEXT ( ( #272, #318, #247 ) ) REPRESENTATION_CONTEXT ( 'NONE', 'WORKASPACE' ) );
#196 = PERSON_AND_ORGANIZATION_ROLE ( 'design_owner' ) ;
#197 = CARTESIAN_POINT ( 'NONE',  ( -6.350000000000002309, 6.350000000000001421, 6.349999999999999645 ) ) ;
#198 = DIRECTION ( 'NONE',  ( 0.000000000000000000, -0.000000000000000000, 1.000000000000000000 ) ) ;
#199 = APPROVAL_PERSON_ORGANIZATION ( #221, #76, #118 ) ;
#200 = PERSON_AND_ORGANIZATION_ROLE ( 'creator' ) ;
#201 = DIRECTION ( 'NONE',  ( -0.7071067811865474617, -0.7071067811865474617, 0.000000000000000000 ) ) ;
#202 = CARTESIAN_POINT ( 'NONE',  ( 6.349999999999999645, -6.350000000000000533, 6.349999999999999645 ) ) ;
#203 = COORDINATED_UNIVERSAL_TIME_OFFSET ( 8, 0, .AHEAD. ) ;
#204 = PLANE ( 'NONE',  #307 ) ;
#205 = ORIENTED_EDGE ( 'NONE', *, *, #27, .T. ) ;
#206 = SECURITY_CLASSIFICATION_LEVEL ( 'unclassified' ) ;
#207 = LINE ( 'NONE', #62, #212 ) ;
#208 = APPROVAL_PERSON_ORGANIZATION ( #149, #238, #250 ) ;
#209 = ORIENTED_EDGE ( 'NONE', *, *, #265, .F. ) ;
#210 = DIRECTION ( 'NONE',  ( -1.000000000000000000, -6.829619984160658046E-17, 0.000000000000000000 ) ) ;
#211 = FACE_OUTER_BOUND ( 'NONE', #39, .T. ) ;
#212 = VECTOR ( 'NONE', #113, 1000.000000000000000 ) ;
#213 = EDGE_LOOP ( 'NONE', ( #209, #256, #108, #68 ) ) ;
#214 = EDGE_CURVE ( 'NONE', #82, #225, #46, .T. ) ;
#215 = VECTOR ( 'NONE', #169, 1000.000000000000000 ) ;
#216 = CARTESIAN_POINT ( 'NONE',  ( 6.349999999999999645, -6.350000000000000533, 6.349999999999999645 ) ) ;
#217 = CARTESIAN_POINT ( 'NONE',  ( 6.349999999999996980, 6.349999999999996980, 6.349999999999999645 ) ) ;
#218 = APPROVAL ( #191, 'UNSPECIFIED' ) ;
#219 = PLANE ( 'NONE',  #224 ) ;
#220 = DIRECTION ( 'NONE',  ( 1.000000000000000000, -2.220446049250312588E-16, 0.000000000000000000 ) ) ;
#221 = PERSON_AND_ORGANIZATION ( #74, #60 ) ;
#222 = LOCAL_TIME ( 11, 17, 11.00000000000000000, #310 ) ;
#223 = CARTESIAN_POINT ( 'NONE',  ( -6.349999999999998757, -6.349999999999997868, 6.349999999999999645 ) ) ;
#224 = AXIS2_PLACEMENT_3D ( 'NONE', #315, #193, #290 ) ;
#225 = VERTEX_POINT ( 'NONE', #42 ) ;
#226 = PERSON_AND_ORGANIZATION ( #74, #60 ) ;
#227 = CARTESIAN_POINT ( 'NONE',  ( -6.349999999999999645, -6.350000000000000533, 6.349999999999999645 ) ) ;
#228 = VERTEX_POINT ( 'NONE', #237 ) ;
#229 = PERSON_AND_ORGANIZATION_ROLE ( 'design_supplier' ) ;
#230 = LINE ( 'NONE', #81, #293 ) ;
#231 = FACE_OUTER_BOUND ( 'NONE', #180, .T. ) ;
#232 = ORIENTED_EDGE ( 'NONE', *, *, #25, .T. ) ;
#233 = DIRECTION ( 'NONE',  ( -6.829619984160658046E-17, 1.000000000000000000, -0.000000000000000000 ) ) ;
#234 = ADVANCED_FACE ( 'NONE', ( #266 ), #139, .F. ) ;
#235 = DIRECTION ( 'NONE',  ( 1.000000000000000000, 0.000000000000000000, 0.000000000000000000 ) ) ;
#236 = VECTOR ( 'NONE', #201, 1000.000000000000114 ) ;
#237 = CARTESIAN_POINT ( 'NONE',  ( -6.349999999999998757, -6.349999999999997868, -6.349999999999999645 ) ) ;
#238 = APPROVAL ( #106, 'UNSPECIFIED' ) ;
#239 = MANIFOLD_SOLID_BREP ( 'Í¹Ì¨-À', #257 ) ;
#240 = CC_DESIGN_APPROVAL ( #238, ( #120 ) ) ;
#241 = LINE ( 'NONE', #18, #96 ) ;
#242 = ADVANCED_FACE ( 'NONE', ( #70 ), #264, .F. ) ;
#243 = CARTESIAN_POINT ( 'NONE',  ( 0.000000000000000000, 0.000000000000000000, 6.349999999999999645 ) ) ;
#244 = AXIS2_PLACEMENT_3D ( 'NONE', #245, #314, #89 ) ;
#245 = CARTESIAN_POINT ( 'NONE',  ( 6.349999999999998757, 6.349999999999998757, 6.349999999999999645 ) ) ;
#246 = APPROVAL_PERSON_ORGANIZATION ( #291, #218, #306 ) ;
#247 =( NAMED_UNIT ( * ) SI_UNIT ( $, .STERADIAN. ) SOLID_ANGLE_UNIT ( ) );
#248 = DIRECTION ( 'NONE',  ( 0.000000000000000000, 0.000000000000000000, -1.000000000000000000 ) ) ;
#249 = AXIS2_PLACEMENT_3D ( 'NONE', #77, #103, #198 ) ;
#250 = APPROVAL_ROLE ( '' ) ;
#251 = PLANE ( 'NONE',  #316 ) ;
#252 = EDGE_LOOP ( 'NONE', ( #205, #55, #178, #130 ) ) ;
#253 = EDGE_LOOP ( 'NONE', ( #260, #36, #137, #4 ) ) ;
#254 = PERSON_AND_ORGANIZATION ( #74, #60 ) ;
#255 = LINE ( 'NONE', #227, #99 ) ;
#256 = ORIENTED_EDGE ( 'NONE', *, *, #295, .F. ) ;
#257 = CLOSED_SHELL ( 'NONE', ( #242, #319, #24, #141, #80 ) ) ;
#258 = ORIENTED_EDGE ( 'NONE', *, *, #312, .F. ) ;
#259 = APPLICATION_CONTEXT ( 'configuration controlled 3d designs of mechanical parts and assemblies' ) ;
#260 = ORIENTED_EDGE ( 'NONE', *, *, #102, .T. ) ;
#261 = PERSON_AND_ORGANIZATION_ROLE ( 'classification_officer' ) ;
#262 = FACE_OUTER_BOUND ( 'NONE', #154, .T. ) ;
#263 = ORIENTED_EDGE ( 'NONE', *, *, #123, .T. ) ;
#264 = PLANE ( 'NONE',  #244 ) ;
#265 = EDGE_CURVE ( 'NONE', #278, #228, #313, .T. ) ;
#266 = FACE_OUTER_BOUND ( 'NONE', #213, .T. ) ;
#267 = PLANE ( 'NONE',  #29 ) ;
#268 = EDGE_CURVE ( 'NONE', #285, #277, #241, .T. ) ;
#269 = PERSON_AND_ORGANIZATION ( #74, #60 ) ;
#270 = LINE ( 'NONE', #294, #117 ) ;
#271 = VECTOR ( 'NONE', #11, 1000.000000000000114 ) ;
#272 =( LENGTH_UNIT ( ) NAMED_UNIT ( * ) SI_UNIT ( .MILLI., .METRE. ) );
#273 = DIRECTION ( 'NONE',  ( -2.220446049250312588E-16, 1.000000000000000000, 0.000000000000000000 ) ) ;
#274 = PRODUCT_DEFINITION ( 'UNKNOWN', '', #120, #192 ) ;
#275 = AXIS2_PLACEMENT_3D ( 'NONE', #59, #210, #107 ) ;
#276 = LINE ( 'NONE', #34, #172 ) ;
#277 = VERTEX_POINT ( 'NONE', #217 ) ;
#278 = VERTEX_POINT ( 'NONE', #190 ) ;
#279 = ORIENTED_EDGE ( 'NONE', *, *, #134, .F. ) ;
#280 = LINE ( 'NONE', #131, #138 ) ;
#281 = ORIENTED_EDGE ( 'NONE', *, *, #54, .F. ) ;
#282 = ADVANCED_FACE ( 'NONE', ( #92 ), #219, .T. ) ;
#283 = ADVANCED_FACE ( 'NONE', ( #189 ), #267, .F. ) ;
#284 = VERTEX_POINT ( 'NONE', #146 ) ;
#285 = VERTEX_POINT ( 'NONE', #197 ) ;
#286 = CARTESIAN_POINT ( 'NONE',  ( 6.349999999999998757, 6.349999999999998757, 6.349999999999999645 ) ) ;
#287 = DIRECTION ( 'NONE',  ( 1.000000000000000000, 0.000000000000000000, 0.000000000000000000 ) ) ;
#288 = SECURITY_CLASSIFICATION ( '', '', #206 ) ;
#289 = DIRECTION ( 'NONE',  ( 1.000000000000000000, 0.000000000000000000, 0.000000000000000000 ) ) ;
#290 = DIRECTION ( 'NONE',  ( -2.220446049250312588E-16, 1.000000000000000000, 0.000000000000000000 ) ) ;
#291 = PERSON_AND_ORGANIZATION ( #74, #60 ) ;
#292 = EDGE_CURVE ( 'NONE', #285, #15, #145, .T. ) ;
#293 = VECTOR ( 'NONE', #179, 1000.000000000000000 ) ;
#294 = CARTESIAN_POINT ( 'NONE',  ( 6.349999999999996980, 6.349999999999996980, 6.349999999999999645 ) ) ;
#295 = EDGE_CURVE ( 'NONE', #277, #278, #194, .T. ) ;
#296 = DIRECTION ( 'NONE',  ( -2.220446049250312588E-16, 1.000000000000000000, 0.000000000000000000 ) ) ;
#297 = ORIENTED_EDGE ( 'NONE', *, *, #265, .T. ) ;
#298 = COORDINATED_UNIVERSAL_TIME_OFFSET ( 8, 0, .AHEAD. ) ;
#299 = CARTESIAN_POINT ( 'NONE',  ( 0.000000000000000000, 0.000000000000000000, -6.349999999999999645 ) ) ;
#300 = EDGE_LOOP ( 'NONE', ( #279, #114, #176, #110 ) ) ;
#301 = PERSON_AND_ORGANIZATION ( #74, #60 ) ;
#302 = DIRECTION ( 'NONE',  ( 1.000000000000000000, 0.000000000000000000, 0.000000000000000000 ) ) ;
#303 = VERTEX_POINT ( 'NONE', #101 ) ;
#304 = EDGE_CURVE ( 'NONE', #277, #184, #270, .T. ) ;
#305 = ORIENTED_EDGE ( 'NONE', *, *, #214, .F. ) ;
#306 = APPROVAL_ROLE ( '' ) ;
#307 = AXIS2_PLACEMENT_3D ( 'NONE', #14, #182, #86 ) ;
#308 = CARTESIAN_POINT ( 'NONE',  ( 0.000000000000000000, 0.000000000000000000, -6.349999999999999645 ) ) ;
#309 = ORIENTED_EDGE ( 'NONE', *, *, #304, .F. ) ;
#310 = COORDINATED_UNIVERSAL_TIME_OFFSET ( 8, 0, .AHEAD. ) ;
#311 = PERSON_AND_ORGANIZATION ( #74, #60 ) ;
#312 = EDGE_CURVE ( 'NONE', #184, #285, #122, .T. ) ;
#313 = LINE ( 'NONE', #21, #50 ) ;
#314 = DIRECTION ( 'NONE',  ( 0.7071067811865475727, -0.7071067811865475727, 0.000000000000000000 ) ) ;
#315 = CARTESIAN_POINT ( 'NONE',  ( 0.000000000000000000, 0.000000000000000000, 6.349999999999999645 ) ) ;
#316 = AXIS2_PLACEMENT_3D ( 'NONE', #299, #79, #296 ) ;
#317 = PLANE ( 'NONE',  #249 ) ;
#318 =( NAMED_UNIT ( * ) PLANE_ANGLE_UNIT ( ) SI_UNIT ( $, .RADIAN. ) );
#319 = ADVANCED_FACE ( 'NONE', ( #52 ), #317, .F. ) ;
#320 = PRODUCT_DEFINITION_SHAPE ( 'NONE', 'NONE',  #274 ) ;
#321 = CARTESIAN_POINT ( 'NONE',  ( 6.349999999999996980, 6.349999999999996980, 6.349999999999999645 ) ) ;
ENDSEC;
END-ISO-10303-21;
